  0
SECTION
  2
HEADER
  9
$ACADVER
  1
AC1015
  9
$ACADMAINTVER
 70
     6
  9
$DWGCODEPAGE
  3
ANSI_1254
  9
$INSBASE
 10
0.0
 20
0.0
 30
0.0
  9
$EXTMIN
 10
0.0
 20
0.0
 30
0.0
  9
$EXTMAX
 10
279.4
 20
215.9
 30
0.0
  9
$LIMMIN
 10
0.0
 20
0.0
  9
$LIMMAX
 10
279.4
 20
215.9
  9
$ORTHOMODE
 70
     0
  9
$REGENMODE
 70
     1
  9
$FILLMODE
 70
     1
  9
$QTEXTMODE
 70
     0
  9
$MIRRTEXT
 70
     1
  9
$LTSCALE
 40
1.0
  9
$ATTMODE
 70
     1
  9
$TEXTSIZE
 40
3.5
  9
$TRACEWID
 40
1.0
  9
$TEXTSTYLE
  7
Standard
  9
$CLAYER
  8
0
  9
$CELTYPE
  6
ByLayer
  9
$CECOLOR
 62
   256
  9
$CELTSCALE
 40
1.0
  9
$DISPSILH
 70
     0
  9
$DIMSCALE
 40
1.0
  9
$DIMASZ
 40
3.5
  9
$DIMEXO
 40
1.0
  9
$DIMDLI
 40
3.75
  9
$DIMRND
 40
0.0
  9
$DIMDLE
 40
0.0
  9
$DIMEXE
 40
1.0
  9
$DIMTP
 40
0.0
  9
$DIMTM
 40
0.0
  9
$DIMTXT
 40
3.5
  9
$DIMCEN
 40
2.5
  9
$DIMTSZ
 40
0.0
  9
$DIMTOL
 70
     0
  9
$DIMLIM
 70
     0
  9
$DIMTIH
 70
     1
  9
$DIMTOH
 70
     1
  9
$DIMSE1
 70
     0
  9
$DIMSE2
 70
     0
  9
$DIMTAD
 70
     1
  9
$DIMZIN
 70
     0
  9
$DIMBLK
  1

  9
$DIMASO
 70
     1
  9
$DIMSHO
 70
     1
  9
$DIMPOST
  1

  9
$DIMAPOST
  1

  9
$DIMALT
 70
     0
  9
$DIMALTD
 70
     3
  9
$DIMALTF
 40
0.0393700787
  9
$DIMLFAC
 40
1.0
  9
$DIMTOFL
 70
     1
  9
$DIMTVP
 40
0.0
  9
$DIMTIX
 70
     0
  9
$DIMSOXD
 70
     0
  9
$DIMSAH
 70
     0
  9
$DIMBLK1
  1

  9
$DIMBLK2
  1

  9
$DIMSTYLE
  2
ISO-25
  9
$DIMCLRD
 70
     0
  9
$DIMCLRE
 70
     0
  9
$DIMCLRT
 70
     0
  9
$DIMTFAC
 40
1.0
  9
$DIMGAP
 40
1.524
  9
$DIMJUST
 70
     0
  9
$DIMSD1
 70
     0
  9
$DIMSD2
 70
     0
  9
$DIMTOLJ
 70
     0
  9
$DIMTZIN
 70
     0
  9
$DIMALTZ
 70
     0
  9
$DIMALTTZ
 70
     0
  9
$DIMUPT
 70
     0
  9
$DIMDEC
 70
     2
  9
$DIMTDEC
 70
     2
  9
$DIMALTU
 70
     2
  9
$DIMALTTD
 70
     3
  9
$DIMTXSTY
  7
Standard
  9
$DIMAUNIT
 70
     0
  9
$DIMADEC
 70
     2
  9
$DIMALTRND
 40
0.0
  9
$DIMAZIN
 70
     0
  9
$DIMDSEP
 70
    44
  9
$DIMATFIT
 70
     3
  9
$DIMFRAC
 70
     0
  9
$DIMLDRBLK
  1

  9
$DIMLUNIT
 70
     2
  9
$DIMLWD
 70
    -2
  9
$DIMLWE
 70
    -2
  9
$DIMTMOVE
 70
     0
  9
$LUNITS
 70
     2
  9
$LUPREC
 70
     2
  9
$SKETCHINC
 40
1.0
  9
$FILLETRAD
 40
10.0
  9
$AUNITS
 70
     0
  9
$AUPREC
 70
     2
  9
$MENU
  1
.
  9
$ELEVATION
 40
0.0
  9
$PELEVATION
 40
0.0
  9
$THICKNESS
 40
0.0
  9
$LIMCHECK
 70
     0
  9
$CHAMFERA
 40
0.0
  9
$CHAMFERB
 40
0.0
  9
$CHAMFERC
 40
0.0
  9
$CHAMFERD
 40
0.0
  9
$SKPOLY
 70
     0
  9
$TDCREATE
 40
2458985.654434896
  9
$TDUCREATE
 40
2458985.529434896
  9
$TDUPDATE
 40
2458985.654435162
  9
$TDUUPDATE
 40
2458985.529435162
  9
$TDINDWG
 40
0.0000000116
  9
$TDUSRTIMER
 40
0.0000000116
  9
$USRTIMER
 70
     1
  9
$ANGBASE
 50
0.0
  9
$ANGDIR
 70
     0
  9
$PDMODE
 70
     0
  9
$PDSIZE
 40
-1.0
  9
$PLINEWID
 40
0.0
  9
$SPLFRAME
 70
     0
  9
$SPLINETYPE
 70
     6
  9
$SPLINESEGS
 70
     8
  9
$HANDSEED
  5
CB
  9
$SURFTAB1
 70
     6
  9
$SURFTAB2
 70
     6
  9
$SURFTYPE
 70
     6
  9
$SURFU
 70
     6
  9
$SURFV
 70
     6
  9
$UCSBASE
  2

  9
$UCSNAME
  2

  9
$UCSORG
 10
0.0
 20
0.0
 30
0.0
  9
$UCSXDIR
 10
1.0
 20
0.0
 30
0.0
  9
$UCSYDIR
 10
0.0
 20
1.0
 30
0.0
  9
$UCSORTHOREF
  2

  9
$UCSORTHOVIEW
 70
     0
  9
$UCSORGTOP
 10
0.0
 20
0.0
 30
0.0
  9
$UCSORGBOTTOM
 10
0.0
 20
0.0
 30
0.0
  9
$UCSORGLEFT
 10
0.0
 20
0.0
 30
0.0
  9
$UCSORGRIGHT
 10
0.0
 20
0.0
 30
0.0
  9
$UCSORGFRONT
 10
0.0
 20
0.0
 30
0.0
  9
$UCSORGBACK
 10
0.0
 20
0.0
 30
0.0
  9
$PUCSBASE
  2

  9
$PUCSNAME
  2

  9
$PUCSORG
 10
0.0
 20
0.0
 30
0.0
  9
$PUCSXDIR
 10
1.0
 20
0.0
 30
0.0
  9
$PUCSYDIR
 10
0.0
 20
1.0
 30
0.0
  9
$PUCSORTHOREF
  2

  9
$PUCSORTHOVIEW
 70
     0
  9
$PUCSORGTOP
 10
0.0
 20
0.0
 30
0.0
  9
$PUCSORGBOTTOM
 10
0.0
 20
0.0
 30
0.0
  9
$PUCSORGLEFT
 10
0.0
 20
0.0
 30
0.0
  9
$PUCSORGRIGHT
 10
0.0
 20
0.0
 30
0.0
  9
$PUCSORGFRONT
 10
0.0
 20
0.0
 30
0.0
  9
$PUCSORGBACK
 10
0.0
 20
0.0
 30
0.0
  9
$USERI1
 70
     0
  9
$USERI2
 70
     0
  9
$USERI3
 70
     0
  9
$USERI4
 70
     0
  9
$USERI5
 70
     0
  9
$USERR1
 40
0.0
  9
$USERR2
 40
0.0
  9
$USERR3
 40
0.0
  9
$USERR4
 40
0.0
  9
$USERR5
 40
0.0
  9
$WORLDVIEW
 70
     1
  9
$SHADEDGE
 70
     3
  9
$SHADEDIF
 70
    70
  9
$TILEMODE
 70
     1
  9
$MAXACTVP
 70
    64
  9
$PINSBASE
 10
0.0
 20
0.0
 30
0.0
  9
$PLIMCHECK
 70
     0
  9
$PEXTMIN
 10
1.0000000000E+20
 20
1.0000000000E+20
 30
1.0000000000E+20
  9
$PEXTMAX
 10
-1.0000000000E+20
 20
-1.0000000000E+20
 30
-1.0000000000E+20
  9
$PLIMMIN
 10
0.0
 20
0.0
  9
$PLIMMAX
 10
420.0
 20
297.0
  9
$UNITMODE
 70
     0
  9
$VISRETAIN
 70
     1
  9
$PLINEGEN
 70
     0
  9
$PSLTSCALE
 70
     1
  9
$TREEDEPTH
 70
  3020
  9
$CMLSTYLE
  2
Standard
  9
$CMLJUST
 70
     0
  9
$CMLSCALE
 40
20.0
  9
$PROXYGRAPHICS
 70
     1
  9
$MEASUREMENT
 70
     1
  9
$CELWEIGHT
370
    -1
  9
$ENDCAPS
280
     0
  9
$JOINSTYLE
280
     0
  9
$LWDISPLAY
290
     1
  9
$INSUNITS
 70
     4
  9
$HYPERLINKBASE
  1

  9
$STYLESHEET
  1

  9
$XEDIT
290
     1
  9
$CEPSNTYPE
380
     0
  9
$PSTYLEMODE
290
     1
  9
$FINGERPRINTGUID
  2
{c1ce6727-b036-4c40-97da-e663ddcf08fe}
  9
$VERSIONGUID
  2
{FAEB1C32-E019-11D5-929B-00C0DF256EC4}
  9
$EXTNAMES
290
     1
  9
$PSVPSCALE
 40
0.0
  9
$OLESTARTUP
290
     0
  0
ENDSEC
  0
SECTION
  2
CLASSES
  0
CLASS
  1
ACDBDICTIONARYWDFLT
  2
AcDbDictionaryWithDefault
  3
ObjectDBX Classes
 90
        0
280
     0
281
     0
  0
CLASS
  1
VISUALSTYLE
  2
AcDbVisualStyle
  3
ObjectDBX Classes
 90
     4095
280
     0
281
     0
  0
CLASS
  1
MATERIAL
  2
AcDbMaterial
  3
ObjectDBX Classes
 90
     1153
280
     0
281
     0
  0
CLASS
  1
SCALE
  2
AcDbScale
  3
ObjectDBX Classes
 90
     1153
280
     0
281
     0
  0
CLASS
  1
TABLESTYLE
  2
AcDbTableStyle
  3
ObjectDBX Classes
 90
     4095
280
     0
281
     0
  0
CLASS
  1
MLEADERSTYLE
  2
AcDbMLeaderStyle
  3
ACDB_MLEADERSTYLE_CLASS
 90
     4095
280
     0
281
     0
  0
CLASS
  1
SUN
  2
AcDbSun
  3
SCENEOE
 90
     1153
280
     0
281
     0
  0
CLASS
  1
ACDBPLACEHOLDER
  2
AcDbPlaceHolder
  3
ObjectDBX Classes
 90
        0
280
     0
281
     0
  0
CLASS
  1
LAYOUT
  2
AcDbLayout
  3
ObjectDBX Classes
 90
        0
280
     0
281
     0
  0
ENDSEC
  0
SECTION
  2
TABLES
  0
TABLE
  2
VPORT
  5
8
330
0
100
AcDbSymbolTable
 70
     1
  0
VPORT
  5
29
330
8
100
AcDbSymbolTableRecord
100
AcDbViewportTableRecord
  2
*Active
 70
     0
 10
0.0
 20
0.0
 11
1.0
 21
1.0
 12
139.7
 22
107.95
 13
0.0
 23
0.0
 14
10.0
 24
10.0
 15
10.0
 25
10.0
 16
0.0
 26
0.0
 36
1.0
 17
0.0
 27
0.0
 37
0.0
 40
215.9
 41
1.2941176471
 42
50.0
 43
0.0
 44
0.0
 50
0.0
 51
0.0
 71
     0
 72
  2000
 73
     1
 74
     3
 75
     0
 76
     0
 77
     0
 78
     0
281
     0
 65
     1
110
0.0
120
0.0
130
0.0
111
1.0
121
0.0
131
0.0
112
0.0
122
1.0
132
0.0
 79
     0
146
0.0
  0
ENDTAB
  0
TABLE
  2
LTYPE
  5
5
330
0
100
AcDbSymbolTable
 70
     6
  0
LTYPE
  5
14
330
5
100
AcDbSymbolTableRecord
100
AcDbLinetypeTableRecord
  2
ByBlock
 70
     0
  3

 72
    65
 73
     0
 40
0.0
  0
LTYPE
  5
15
330
5
100
AcDbSymbolTableRecord
100
AcDbLinetypeTableRecord
  2
ByLayer
 70
     0
  3

 72
    65
 73
     0
 40
0.0
  0
LTYPE
  5
16
330
5
100
AcDbSymbolTableRecord
100
AcDbLinetypeTableRecord
  2
Continuous
 70
     0
  3
Solid line
 72
    65
 73
     0
 40
0.0
  0
LTYPE
  5
6E
330
5
100
AcDbSymbolTableRecord
100
AcDbLinetypeTableRecord
  2
HIDDEN
 70
     0
  3
Hidden __ __ __ __ __ __ __ __ __ __ __ __ __ __
 72
    65
 73
     2
 40
1.905
 49
1.27
 74
     0
 49
-0.635
 74
     0
  0
LTYPE
  5
6F
330
5
100
AcDbSymbolTableRecord
100
AcDbLinetypeTableRecord
  2
PHANTOM
 70
     0
  3
Phantom ______  __  __  ______  __  __  ______
 72
    65
 73
     6
 40
12.7
 49
6.35
 74
     0
 49
-1.27
 74
     0
 49
1.27
 74
     0
 49
-1.27
 74
     0
 49
1.27
 74
     0
 49
-1.27
 74
     0
  0
LTYPE
  5
70
330
5
100
AcDbSymbolTableRecord
100
AcDbLinetypeTableRecord
  2
CENTER
 70
     0
  3
Center ____ _ ____ _ ____ _ ____ _ ____ _ ____
 72
    65
 73
     4
 40
10.16
 49
6.35
 74
     0
 49
-1.27
 74
     0
 49
1.27
 74
     0
 49
-1.27
 74
     0
  0
LTYPE
  5
71
330
5
100
AcDbSymbolTableRecord
100
AcDbLinetypeTableRecord
  2
CENTERX2
 70
     0
  3
Center (2x) ________  __  ________  __  _____
 72
    65
 73
     4
 40
20.32
 49
12.7
 74
     0
 49
-2.54
 74
     0
 49
2.54
 74
     0
 49
-2.54
 74
     0
  0
LTYPE
  5
72
330
5
100
AcDbSymbolTableRecord
100
AcDbLinetypeTableRecord
  2
DOT2
 70
     0
  3
Dot (.5x) ........................................
 72
    65
 73
     2
 40
0.635
 49
0.0
 74
     0
 49
-0.635
 74
     0
  0
ENDTAB
  0
TABLE
  2
LAYER
  5
2
330
0
100
AcDbSymbolTable
 70
    17
  0
LAYER
  5
10
330
2
100
AcDbSymbolTableRecord
100
AcDbLayerTableRecord
  2
0
 70
     0
 62
     7
  6
Continuous
370
    -3
390
F
  0
LAYER
  5
73
330
2
100
AcDbSymbolTableRecord
100
AcDbLayerTableRecord
  2
FORMAT
 70
     0
 62
     7
  6
Continuous
370
    -3
390
F
  0
LAYER
  5
74
330
2
100
AcDbSymbolTableRecord
100
AcDbLayerTableRecord
  2
YARDIMCI_GEOMETRI
 70
     0
 62
    -6
  6
Continuous
290
     0
370
    -3
390
F
  0
LAYER
  5
75
330
2
100
AcDbSymbolTableRecord
100
AcDbLayerTableRecord
  2
SAYFA_CERCEVESI
 70
     0
 62
     7
  6
Continuous
370
    25
390
F
  0
LAYER
  5
76
330
2
100
AcDbSymbolTableRecord
100
AcDbLayerTableRecord
  2
ANTET
 70
     0
 62
     7
  6
Continuous
370
    -3
390
F
  0
LAYER
  5
77
330
2
100
AcDbSymbolTableRecord
100
AcDbLayerTableRecord
  2
OLCU
 70
     0
 62
   150
  6
Continuous
370
    -3
390
F
  0
LAYER
  5
78
330
2
100
AcDbSymbolTableRecord
100
AcDbLayerTableRecord
  2
METIN
 70
     0
 62
    96
  6
Continuous
370
    -3
390
F
  0
LAYER
  5
79
330
2
100
AcDbSymbolTableRecord
100
AcDbLayerTableRecord
  2
BALON
 70
     0
 62
     5
  6
Continuous
370
    -3
390
F
  0
LAYER
  5
7A
330
2
100
AcDbSymbolTableRecord
100
AcDbLayerTableRecord
  2
VURGU
 70
     0
 62
     7
  6
Continuous
370
    -3
390
F
  0
LAYER
  5
7B
330
2
100
AcDbSymbolTableRecord
100
AcDbLayerTableRecord
  2
SILIK
 70
     0
 62
     7
  6
Continuous
370
    -3
390
F
  0
LAYER
  5
7C
330
2
100
AcDbSymbolTableRecord
100
AcDbLayerTableRecord
  2
MODEL
 70
     0
 62
     7
  6
Continuous
370
    -3
390
F
  0
LAYER
  5
7D
330
2
100
AcDbSymbolTableRecord
100
AcDbLayerTableRecord
  2
DETAYLANDıRMA
 70
     0
 62
   190
  6
Continuous
370
    -3
390
F
  0
LAYER
  5
7E
330
2
100
AcDbSymbolTableRecord
100
AcDbLayerTableRecord
  2
TOLERANS
 70
     0
 62
   230
  6
Continuous
370
    -3
390
F
  0
LAYER
  5
7F
330
2
100
AcDbSymbolTableRecord
100
AcDbLayerTableRecord
  2
MERKEZ_CIZGILERI
 70
     0
 62
    30
  6
Continuous
370
    -3
390
F
  0
LAYER
  5
80
330
2
100
AcDbSymbolTableRecord
100
AcDbLayerTableRecord
  2
KESIT-DETAY_CIZGILERI
 70
     0
 62
     7
  6
Continuous
370
    -3
390
F
  0
LAYER
  5
81
330
2
100
AcDbSymbolTableRecord
100
AcDbLayerTableRecord
  2
\U+041E\U+0421\U+0415\U+0412\U+042B\U+0415
 70
     0
 62
     7
  6
Continuous
370
    -3
390
F
  0
LAYER
  5
82
330
2
100
AcDbSymbolTableRecord
100
AcDbLayerTableRecord
  2
\U+0412\U+041E\U+0414\U+042F\U+041D\U+042B\U+0415_\U+0417\U+041D\U+0410\U+041A\U+0418
 70
     0
 62
    11
  6
Continuous
370
    -3
390
F
  0
ENDTAB
  0
TABLE
  2
STYLE
  5
3
330
0
100
AcDbSymbolTable
 70
     1
  0
STYLE
  5
11
330
3
100
AcDbSymbolTableRecord
100
AcDbTextStyleTableRecord
  2
Standard
 70
     0
 40
0.0
 41
1.0
 50
0.0
 71
     0
 42
3.5
  3
txt
  4

  0
ENDTAB
  0
TABLE
  2
VIEW
  5
6
330
0
100
AcDbSymbolTable
 70
     0
  0
ENDTAB
  0
TABLE
  2
UCS
  5
7
330
0
100
AcDbSymbolTable
 70
     0
  0
ENDTAB
  0
TABLE
  2
APPID
  5
9
330
0
100
AcDbSymbolTable
 70
     1
  0
APPID
  5
12
330
9
100
AcDbSymbolTableRecord
100
AcDbRegAppTableRecord
  2
ACAD
 70
     0
  0
ENDTAB
  0
TABLE
  2
DIMSTYLE
  5
A
330
0
100
AcDbSymbolTable
 70
     1
100
AcDbDimStyleTable
  0
DIMSTYLE
105
27
330
A
100
AcDbSymbolTableRecord
100
AcDbDimStyleTableRecord
  2
ISO-25
 70
     0
 41
2.5
 42
0.625
 43
3.75
 44
1.25
 73
     0
 74
     0
 77
     1
 78
     8
140
2.5
141
2.5
143
0.0393700787
147
0.625
171
     3
172
     1
178
     0
271
     2
272
     2
274
     3
278
    44
283
     0
284
     8
340
11
  0
ENDTAB
  0
TABLE
  2
BLOCK_RECORD
  5
1
330
0
100
AcDbSymbolTable
 70
     2
  0
BLOCK_RECORD
  5
1F
330
1
100
AcDbSymbolTableRecord
100
AcDbBlockTableRecord
  2
*Model_Space
340
22
  0
BLOCK_RECORD
  5
1B
330
1
100
AcDbSymbolTableRecord
100
AcDbBlockTableRecord
  2
*Paper_Space
340
1E
  0
BLOCK_RECORD
  5
23
330
1
100
AcDbSymbolTableRecord
100
AcDbBlockTableRecord
  2
*Paper_Space0
340
26
  0
BLOCK_RECORD
  5
87
330
1
100
AcDbSymbolTableRecord
100
AcDbBlockTableRecord
  2
SW_CENTERMARKSYMBOL_0
340
0
102
{BLKREFS
331
92
102
}
  0
ENDTAB
  0
ENDSEC
  0
SECTION
  2
BLOCKS
  0
BLOCK
  5
20
330
1F
100
AcDbEntity
  8
0
100
AcDbBlockBegin
  2
*Model_Space
 70
     0
 10
0.0
 20
0.0
 30
0.0
  3
*Model_Space
  1

  0
ENDBLK
  5
21
330
1F
100
AcDbEntity
  8
0
100
AcDbBlockEnd
  0
BLOCK
  5
1C
330
1B
100
AcDbEntity
 67
     1
  8
0
100
AcDbBlockBegin
  2
*Paper_Space
 70
     0
 10
0.0
 20
0.0
 30
0.0
  3
*Paper_Space
  1

  0
ENDBLK
  5
1D
330
1B
100
AcDbEntity
 67
     1
  8
0
100
AcDbBlockEnd
  0
BLOCK
  5
24
330
23
100
AcDbEntity
  8
0
100
AcDbBlockBegin
  2
*Paper_Space0
 70
     0
 10
0.0
 20
0.0
 30
0.0
  3
*Paper_Space0
  1

  0
ENDBLK
  5
25
330
23
100
AcDbEntity
  8
0
100
AcDbBlockEnd
  0
BLOCK
  5
88
330
87
100
AcDbEntity
  8
0
100
AcDbBlockBegin
  2
SW_CENTERMARKSYMBOL_0
 70
     0
 10
0.0
 20
0.0
 30
0.0
  3
SW_CENTERMARKSYMBOL_0
  1

  0
LINE
  5
8A
330
87
100
AcDbEntity
  8
FORMAT
 62
     0
100
AcDbLine
 10
0.0
 20
0.0
 30
0.0
 11
0.0
 21
2.5
 31
0.0
  0
LINE
  5
8B
330
87
100
AcDbEntity
  8
FORMAT
 62
     0
100
AcDbLine
 10
0.0
 20
0.0
 30
0.0
 11
-2.5
 21
0.0
 31
0.0
  0
LINE
  5
8C
330
87
100
AcDbEntity
  8
FORMAT
 62
     0
100
AcDbLine
 10
0.0
 20
0.0
 30
0.0
 11
0.0
 21
-2.5
 31
0.0
  0
LINE
  5
8D
330
87
100
AcDbEntity
  8
FORMAT
 62
     0
100
AcDbLine
 10
0.0
 20
0.0
 30
0.0
 11
2.5
 21
0.0
 31
0.0
  0
LINE
  5
8E
330
87
100
AcDbEntity
  8
FORMAT
 62
     0
100
AcDbLine
 10
0.0
 20
5.0
 30
0.0
 11
0.0
 21
68.5
 31
0.0
  0
LINE
  5
8F
330
87
100
AcDbEntity
  8
FORMAT
 62
     0
100
AcDbLine
 10
-5.0
 20
0.0
 30
0.0
 11
-68.5
 21
0.0
 31
0.0
  0
LINE
  5
90
330
87
100
AcDbEntity
  8
FORMAT
 62
     0
100
AcDbLine
 10
0.0
 20
-5.0
 30
0.0
 11
0.0
 21
-68.5
 31
0.0
  0
LINE
  5
91
330
87
100
AcDbEntity
  8
FORMAT
 62
     0
100
AcDbLine
 10
5.0
 20
0.0
 30
0.0
 11
68.5
 21
0.0
 31
0.0
  0
ENDBLK
  5
89
330
87
100
AcDbEntity
  8
0
100
AcDbBlockEnd
  0
ENDSEC
  0
SECTION
  2
ENTITIES
  0
CIRCLE
  5
83
330
1F
100
AcDbEntity
  8
0
  6
Continuous
 62
     7
370
    25
100
AcDbCircle
 10
141.8186392984
 20
106.2483727074
 30
0.0
 40
44.99999999999997
  0
CIRCLE
  5
84
330
1F
100
AcDbEntity
  8
0
  6
Continuous
 62
     7
370
    25
100
AcDbCircle
 10
141.8186392984
 20
106.2483727074
 30
0.0
 40
39.59999999999998
  0
CIRCLE
  5
85
330
1F
100
AcDbEntity
  8
0
  6
Continuous
 62
     7
370
    25
100
AcDbCircle
 10
141.8186392984
 20
106.2483727074
 30
0.0
 40
53.99999999999997
  0
CIRCLE
  5
86
330
1F
100
AcDbEntity
  8
0
  6
Continuous
 62
     7
370
    25
100
AcDbCircle
 10
141.8186392984
 20
106.2483727074
 30
0.0
 40
65.99999999999999
  0
INSERT
  5
92
330
1F
100
AcDbEntity
  8
FORMAT
 62
     7
100
AcDbBlockReference
  2
SW_CENTERMARKSYMBOL_0
 10
141.8186392984
 20
106.2483727074
 30
0.0
  0
LINE
  5
93
330
1F
100
AcDbEntity
  8
0
  6
Continuous
 62
     7
370
    25
100
AcDbLine
 10
207.8186392984
 20
232.5735867345
 30
0.0
 11
207.8186392984
 21
249.5735867345
 31
0.0
  0
LINE
  5
94
330
1F
100
AcDbEntity
  8
0
  6
Continuous
 62
     7
370
    25
100
AcDbLine
 10
75.8186392984
 20
249.5735867345
 30
0.0
 11
75.8186392984
 21
232.5735867345
 31
0.0
  0
LINE
  5
95
330
1F
100
AcDbEntity
  8
0
  6
Continuous
 62
     7
370
    25
100
AcDbLine
 10
195.8186392984
 20
249.5735867345
 30
0.0
 11
186.8186392984
 21
266.5735867345
 31
0.0
  0
LINE
  5
96
330
1F
100
AcDbEntity
  8
0
  6
Continuous
 62
     7
370
    25
100
AcDbLine
 10
96.8186392984
 20
266.5735867345
 30
0.0
 11
87.8186392984
 21
249.5735867345
 31
0.0
  0
LINE
  5
97
330
1F
100
AcDbEntity
  8
0
  6
Continuous
 62
     7
370
    25
100
AcDbLine
 10
186.8186392984
 20
266.5735867345
 30
0.0
 11
186.8186392984
 21
372.5735867345
 31
0.0
  0
LINE
  5
98
330
1F
100
AcDbEntity
  8
0
  6
Continuous
 62
     7
370
    25
100
AcDbLine
 10
96.8186392984
 20
372.5735867345
 30
0.0
 11
96.8186392984
 21
266.5735867345
 31
0.0
  0
LINE
  5
99
330
1F
100
AcDbEntity
  8
0
  6
Continuous
 62
     7
370
    25
100
AcDbLine
 10
207.8186392984
 20
232.5735867345
 30
0.0
 11
75.8186392984
 21
232.5735867345
 31
0.0
  0
LINE
  5
9A
330
1F
100
AcDbEntity
  8
0
  6
Continuous
 62
     7
370
    25
100
AcDbLine
 10
207.8186392984
 20
249.5735867345
 30
0.0
 11
75.8186392984
 21
249.5735867345
 31
0.0
  0
LINE
  5
9B
330
1F
100
AcDbEntity
  8
0
  6
Continuous
 62
     7
370
    25
100
AcDbLine
 10
186.8186392984
 20
266.5735867345
 30
0.0
 11
96.8186392984
 21
266.5735867345
 31
0.0
  0
LINE
  5
9C
330
1F
100
AcDbEntity
  8
0
  6
Continuous
 62
     7
370
    25
100
AcDbLine
 10
186.8186392984
 20
372.5735867345
 30
0.0
 11
96.8186392984
 21
372.5735867345
 31
0.0
  0
LINE
  5
9D
330
1F
100
AcDbEntity
  8
0
  6
Continuous
 62
     7
370
    25
100
AcDbLine
 10
293.5929550115
 20
40.2483727074
 30
0.0
 11
310.5929550115
 21
40.2483727074
 31
0.0
  0
LINE
  5
9E
330
1F
100
AcDbEntity
  8
0
  6
Continuous
 62
     7
370
    25
100
AcDbLine
 10
310.5929550115
 20
172.2483727074
 30
0.0
 11
293.5929550115
 21
172.2483727074
 31
0.0
  0
LINE
  5
9F
330
1F
100
AcDbEntity
  8
0
  6
Continuous
 62
     7
370
    25
100
AcDbLine
 10
310.5929550115
 20
52.2483727074
 30
0.0
 11
327.5929550115
 21
61.2483727074
 31
0.0
  0
LINE
  5
A0
330
1F
100
AcDbEntity
  8
0
  6
Continuous
 62
     7
370
    25
100
AcDbLine
 10
327.5929550115
 20
151.2483727074
 30
0.0
 11
310.5929550115
 21
160.2483727074
 31
0.0
  0
LINE
  5
A1
330
1F
100
AcDbEntity
  8
0
  6
Continuous
 62
     7
370
    25
100
AcDbLine
 10
327.5929550115
 20
61.2483727074
 30
0.0
 11
433.5929550115
 21
61.2483727074
 31
0.0
  0
LINE
  5
A2
330
1F
100
AcDbEntity
  8
0
  6
Continuous
 62
     7
370
    25
100
AcDbLine
 10
433.5929550115
 20
151.2483727074
 30
0.0
 11
327.5929550115
 21
151.2483727074
 31
0.0
  0
LINE
  5
A3
330
1F
100
AcDbEntity
  8
0
  6
Continuous
 62
     7
370
    25
100
AcDbLine
 10
293.5929550115
 20
106.2483727074
 30
0.0
 11
293.5929550115
 21
172.2483727074
 31
0.0
  0
LINE
  5
A4
330
1F
100
AcDbEntity
  8
0
  6
Continuous
 62
     7
370
    25
100
AcDbLine
 10
293.5929550115
 20
40.2483727074
 30
0.0
 11
293.5929550115
 21
106.2483727074
 31
0.0
  0
LINE
  5
A5
330
1F
100
AcDbEntity
  8
0
  6
Continuous
 62
     7
370
    25
100
AcDbLine
 10
310.5929550115
 20
106.2483727074
 30
0.0
 11
310.5929550115
 21
172.2483727074
 31
0.0
  0
LINE
  5
A6
330
1F
100
AcDbEntity
  8
0
  6
Continuous
 62
     7
370
    25
100
AcDbLine
 10
310.5929550115
 20
40.2483727074
 30
0.0
 11
310.5929550115
 21
106.2483727074
 31
0.0
  0
LINE
  5
A7
330
1F
100
AcDbEntity
  8
0
  6
Continuous
 62
     7
370
    25
100
AcDbLine
 10
327.5929550115
 20
106.2483727074
 30
0.0
 11
327.5929550115
 21
151.2483727074
 31
0.0
  0
LINE
  5
A8
330
1F
100
AcDbEntity
  8
0
  6
Continuous
 62
     7
370
    25
100
AcDbLine
 10
327.5929550115
 20
61.2483727074
 30
0.0
 11
327.5929550115
 21
106.2483727074
 31
0.0
  0
LINE
  5
A9
330
1F
100
AcDbEntity
  8
0
  6
Continuous
 62
     7
370
    25
100
AcDbLine
 10
433.5929550115
 20
106.2483727074
 30
0.0
 11
433.5929550115
 21
151.2483727074
 31
0.0
  0
LINE
  5
AA
330
1F
100
AcDbEntity
  8
0
  6
Continuous
 62
     7
370
    25
100
AcDbLine
 10
433.5929550115
 20
61.2483727074
 30
0.0
 11
433.5929550115
 21
106.2483727074
 31
0.0
  0
LINE
  5
AB
330
1F
100
AcDbEntity
  8
0
  6
Continuous
 62
     7
370
    25
100
AcDbLine
 10
75.8186392984
 20
-15.6091646002
 30
0.0
 11
75.8186392984
 21
-32.6091646002
 31
0.0
  0
LINE
  5
AC
330
1F
100
AcDbEntity
  8
0
  6
Continuous
 62
     7
370
    25
100
AcDbLine
 10
207.8186392984
 20
-32.6091646002
 30
0.0
 11
207.8186392984
 21
-15.6091646002
 31
0.0
  0
LINE
  5
AD
330
1F
100
AcDbEntity
  8
0
  6
Continuous
 62
     7
370
    25
100
AcDbLine
 10
87.8186392984
 20
-32.6091646002
 30
0.0
 11
96.8186392984
 21
-49.6091646002
 31
0.0
  0
LINE
  5
AE
330
1F
100
AcDbEntity
  8
0
  6
Continuous
 62
     7
370
    25
100
AcDbLine
 10
186.8186392984
 20
-49.6091646002
 30
0.0
 11
195.8186392984
 21
-32.6091646002
 31
0.0
  0
LINE
  5
AF
330
1F
100
AcDbEntity
  8
0
  6
Continuous
 62
     7
370
    25
100
AcDbLine
 10
96.8186392984
 20
-49.6091646002
 30
0.0
 11
96.8186392984
 21
-155.6091646002
 31
0.0
  0
LINE
  5
B0
330
1F
100
AcDbEntity
  8
0
  6
Continuous
 62
     7
370
    25
100
AcDbLine
 10
186.8186392984
 20
-155.6091646002
 30
0.0
 11
186.8186392984
 21
-49.6091646002
 31
0.0
  0
LINE
  5
B1
330
1F
100
AcDbEntity
  8
0
  6
Continuous
 62
     7
370
    25
100
AcDbLine
 10
75.8186392984
 20
-15.6091646002
 30
0.0
 11
207.8186392984
 21
-15.6091646002
 31
0.0
  0
LINE
  5
B2
330
1F
100
AcDbEntity
  8
0
  6
Continuous
 62
     7
370
    25
100
AcDbLine
 10
75.8186392984
 20
-32.6091646002
 30
0.0
 11
207.8186392984
 21
-32.6091646002
 31
0.0
  0
LINE
  5
B3
330
1F
100
AcDbEntity
  8
0
  6
Continuous
 62
     7
370
    25
100
AcDbLine
 10
96.8186392984
 20
-49.6091646002
 30
0.0
 11
186.8186392984
 21
-49.6091646002
 31
0.0
  0
LINE
  5
B4
330
1F
100
AcDbEntity
  8
0
  6
Continuous
 62
     7
370
    25
100
AcDbLine
 10
96.8186392984
 20
-155.6091646002
 30
0.0
 11
186.8186392984
 21
-155.6091646002
 31
0.0
  0
LINE
  5
B5
330
1F
100
AcDbEntity
  8
0
  6
Continuous
 62
     7
370
    25
100
AcDbLine
 10
-18.5537584499
 20
172.2483727074
 30
0.0
 11
-35.5537584499
 21
172.2483727074
 31
0.0
  0
LINE
  5
B6
330
1F
100
AcDbEntity
  8
0
  6
Continuous
 62
     7
370
    25
100
AcDbLine
 10
-35.5537584499
 20
40.2483727074
 30
0.0
 11
-18.5537584499
 21
40.2483727074
 31
0.0
  0
LINE
  5
B7
330
1F
100
AcDbEntity
  8
0
  6
Continuous
 62
     7
370
    25
100
AcDbLine
 10
-35.5537584499
 20
160.2483727074
 30
0.0
 11
-52.5537584499
 21
151.2483727074
 31
0.0
  0
LINE
  5
B8
330
1F
100
AcDbEntity
  8
0
  6
Continuous
 62
     7
370
    25
100
AcDbLine
 10
-52.5537584499
 20
61.2483727074
 30
0.0
 11
-35.5537584499
 21
52.2483727074
 31
0.0
  0
LINE
  5
B9
330
1F
100
AcDbEntity
  8
0
  6
Continuous
 62
     7
370
    25
100
AcDbLine
 10
-52.5537584499
 20
151.2483727074
 30
0.0
 11
-158.5537584499
 21
151.2483727074
 31
0.0
  0
LINE
  5
BA
330
1F
100
AcDbEntity
  8
0
  6
Continuous
 62
     7
370
    25
100
AcDbLine
 10
-158.5537584499
 20
61.2483727074
 30
0.0
 11
-52.5537584499
 21
61.2483727074
 31
0.0
  0
LINE
  5
BB
330
1F
100
AcDbEntity
  8
0
  6
Continuous
 62
     7
370
    25
100
AcDbLine
 10
-18.5537584499
 20
172.2483727074
 30
0.0
 11
-18.5537584499
 21
40.2483727074
 31
0.0
  0
LINE
  5
BC
330
1F
100
AcDbEntity
  8
0
  6
Continuous
 62
     7
370
    25
100
AcDbLine
 10
-35.5537584499
 20
172.2483727074
 30
0.0
 11
-35.5537584499
 21
40.2483727074
 31
0.0
  0
LINE
  5
BD
330
1F
100
AcDbEntity
  8
0
  6
Continuous
 62
     7
370
    25
100
AcDbLine
 10
-52.5537584499
 20
151.2483727074
 30
0.0
 11
-52.5537584499
 21
61.2483727074
 31
0.0
  0
LINE
  5
BE
330
1F
100
AcDbEntity
  8
0
  6
Continuous
 62
     7
370
    25
100
AcDbLine
 10
-158.5537584499
 20
151.2483727074
 30
0.0
 11
-158.5537584499
 21
61.2483727074
 31
0.0
  0
LINE
  5
BF
330
1F
100
AcDbEntity
  8
0
  6
Continuous
 62
     7
370
    25
100
AcDbLine
 10
336.5474981929
 20
-14.4137496404
 30
0.0
 11
261.5941793871
 21
-57.683379567
 31
0.0
  0
LINE
  5
C0
330
1F
100
AcDbEntity
  8
0
  6
Continuous
 62
     7
370
    25
100
AcDbLine
 10
306.5905223558
 20
-135.6277771813
 30
0.0
 11
381.5438411615
 21
-92.3581472547
 31
0.0
  0
LINE
  5
C1
330
1F
100
AcDbEntity
  8
0
  6
Continuous
 62
     7
370
    25
100
AcDbLine
 10
350.0899820606
 20
17.6522143706
 30
0.0
 11
338.0691667804
 21
10.7127454201
 31
0.0
  0
LINE
  5
C2
330
1F
100
AcDbEntity
  8
0
  6
Continuous
 62
     7
370
    25
100
AcDbLine
 10
404.0638031344
 20
-103.6057044142
 30
0.0
 11
416.0846184146
 21
-96.6662354637
 31
0.0
  0
LINE
  5
C3
330
1F
100
AcDbEntity
  8
0
  6
Continuous
 62
     7
370
    25
100
AcDbLine
 10
335.9229859412
 20
-8.9168126387
 30
0.0
 11
332.1764256599
 21
-16.9371161023
 31
0.0
  0
LINE
  5
C4
330
1F
100
AcDbEntity
  8
0
  6
Continuous
 62
     7
370
    25
100
AcDbLine
 10
377.1727686286
 20
-94.8815137166
 30
0.0
 11
385.9917634395
 21
-95.64787663
 31
0.0
  0
LWPOLYLINE
  5
C5
330
1F
100
AcDbEntity
  8
0
  6
Continuous
 62
     7
370
    25
100
AcDbPolyline
 90
       54
 70
   128
 43
0.0
 10
336.5474981929
 20
-14.4137496404
 10
337.7540641607
 20
-13.7882026508
 10
339.206345667
 20
-13.205071375
 10
340.7296468041
 20
-12.7657772107
 10
342.3185145496
 20
-12.4718927171
 10
343.967261169
 20
-12.3244699243
 10
345.6699845776
 20
-12.3240365678
 10
347.4205894673
 20
-12.4705941987
 10
349.2128091271
 20
-12.7636181789
 10
351.0402278757
 20
-13.2020595585
 10
352.8963040282
 20
-13.7843488312
 10
354.7743933138
 20
-14.5084015525
 10
356.6677726602
 20
-15.3716258015
 10
358.5696642608
 20
-16.3709314596
 10
360.4732598372
 20
-17.5027412718
 10
362.3717450114
 20
-18.7630036527
 10
364.2583236991
 20
-20.1472071901
 10
366.1262424383
 20
-21.6503967946
 10
367.9688145646
 20
-23.2671914375
 10
369.7794441481
 20
-24.9918034135
 10
371.5516496049
 20
-26.8180590596
 10
373.2790868992
 20
-28.7394208543
 10
374.9555722539
 20
-30.7490108212
 10
376.5751042866
 20
-32.8396351496
 10
378.1318854929
 20
-35.0038099472
 10
379.6203430002
 20
-37.2337880298
 10
381.0351485168
 20
-39.5215866546
 10
382.3712374062
 20
-41.8590160964
 10
383.6238268169
 20
-44.2377089643
 10
384.788432804
 20
-46.6491501553
 10
385.8608863803
 20
-49.0847073357
 10
386.8373484402
 20
-51.535661843
 10
387.7143235032
 20
-53.9932398961
 10
388.4886722259
 20
-56.4486440035
 10
389.157622641
 20
-58.8930844556
 10
389.7187800797
 20
-61.3178107901
 10
390.1701357438
 20
-63.7141431161
 10
390.5100738974
 20
-66.0735031856
 10
390.7373776499
 20
-68.3874451021
 10
390.8512333131
 20
-70.647685554
 10
390.8512333131
 20
-72.846133467
 10
390.7373776499
 20
-74.9749189683
 10
390.5100738974
 20
-77.0264215582
 10
390.1701357438
 20
-78.99329739
 10
389.7187800797
 20
-80.8685055585
 10
389.157622641
 20
-82.6453333053
 10
388.4886722259
 20
-84.3174200481
 10
387.7143235032
 20
-85.8787801504
 10
386.8373484402
 20
-87.3238243483
 10
385.8608863803
 20
-88.6473797585
 10
384.788432804
 20
-89.8447083962
 10
383.6238268169
 20
-90.9115241357
 10
382.3712374062
 20
-91.8440080534
 10
381.5438411615
 20
-92.3581472547
  0
LWPOLYLINE
  5
C6
330
1F
100
AcDbEntity
  8
0
  6
Continuous
 62
     7
370
    25
100
AcDbPolyline
 90
      106
 70
   128
 43
0.0
 10
252.2725457181
 20
-78.2863958581
 10
252.3294990401
 20
-76.1218103524
 10
252.5001551281
 20
-74.0307304069
 10
252.7839030776
 20
-72.0206415452
 10
253.1797271445
 20
-70.0987393637
 10
253.6862103815
 20
-68.2719037734
 10
254.3015397099
 20
-66.5466743716
 10
255.0235124105
 20
-64.9292270318
 10
255.8495440084
 20
-63.4253517957
 10
256.7766775249
 20
-62.0404321463
 10
257.8015940625
 20
-60.7794257366
 10
258.9206246862
 20
-59.6468466422
 10
260.1297635566
 20
-58.6467492023
 10
261.4246822705
 20
-57.7827135062
 10
262.8007453549
 20
-57.0578325774
 10
264.2530268612
 20
-56.4747013016
 10
265.7763279984
 20
-56.0354071373
 10
267.3651957438
 20
-55.7415226437
 10
269.0139423633
 20
-55.5940998509
 10
270.7166657718
 20
-55.5936664944
 10
272.4672706616
 20
-55.7402241253
 10
274.2594903214
 20
-56.0332481055
 10
276.0869090699
 20
-56.4716894851
 10
277.9429852225
 20
-57.0539787578
 10
279.821074508
 20
-57.7780314791
 10
281.7144538544
 20
-58.6412557282
 10
283.616345455
 20
-59.6405613862
 10
285.5199410314
 20
-60.7723711984
 10
287.4184262056
 20
-62.0326335793
 10
289.3050048933
 20
-63.4168371167
 10
291.1729236325
 20
-64.9200267212
 10
293.0154957588
 20
-66.5368213641
 10
294.8261253424
 20
-68.2614333402
 10
296.5983307991
 20
-70.0876889862
 10
298.3257680934
 20
-72.0090507809
 10
300.0022534481
 20
-74.0186407478
 10
301.6217854809
 20
-76.1092650762
 10
303.1785666872
 20
-78.2734398738
 10
304.6670241944
 20
-80.5034179564
 10
306.081829711
 20
-82.7912165812
 10
307.4179186004
 20
-85.128646023
 10
308.6705080112
 20
-87.5073388909
 10
309.8351139982
 20
-89.9187800819
 10
310.9075675745
 20
-92.3543372623
 10
311.8840296345
 20
-94.8052917696
 10
312.7610046974
 20
-97.2628698227
 10
313.5353534201
 20
-99.7182739301
 10
314.2043038353
 20
-102.1627143822
 10
314.7654612739
 20
-104.5874407167
 10
315.2168169381
 20
-106.9837730427
 10
315.5567550916
 20
-109.3431331122
 10
315.7840588442
 20
-111.6570750287
 10
315.8979145073
 20
-113.9173154806
 10
315.8979145073
 20
-116.1157633936
 10
315.7840588442
 20
-118.2445488949
 10
315.5567550916
 20
-120.2960514848
 10
315.2168169381
 20
-122.2629273166
 10
314.7654612739
 20
-124.1381354851
 10
314.2043038353
 20
-125.9149632319
 10
313.5353534201
 20
-127.5870499747
 10
312.7610046974
 20
-129.148410077
 10
311.8840296345
 20
-130.5934542749
 10
310.9075675745
 20
-131.9170096851
 10
309.8351139982
 20
-133.1143383228
 10
308.6705080112
 20
-134.1811540623
 10
307.4179186004
 20
-135.11363798
 10
306.081829711
 20
-135.9084520255
 10
304.6670241944
 20
-136.5627509709
 10
303.1785666872
 20
-137.0741925957
 10
301.6217854809
 20
-137.4409460717
 10
300.0022534481
 20
-137.6616985165
 10
298.3257680934
 20
-137.7356596938
 10
296.5983307991
 20
-137.6625648417
 10
294.8261253424
 20
-137.4426756209
 10
293.0154957588
 20
-137.0767791775
 10
291.1729236325
 20
-136.5661853261
 10
289.3050048933
 20
-135.9127218599
 10
287.4184262056
 20
-135.1187280087
 10
285.5199410314
 20
-134.1870460644
 10
283.616345455
 20
-133.1210112065
 10
281.7144538544
 20
-131.9244395631
 10
279.821074508
 20
-130.6016145502
 10
277.9429852225
 20
-129.1572715379
 10
276.0869090699
 20
-127.5965808995
 10
274.2594903214
 20
-125.9251295023
 10
272.4672706616
 20
-124.1489007086
 10
270.7166657718
 20
-122.2742529564
 10
269.0139423633
 20
-120.3078969982
 10
267.3651957438
 20
-118.2568718779
 10
265.7763279984
 20
-116.1285197332
 10
264.2530268612
 20
-113.9304595123
 10
262.8007453549
 20
-111.6705597004
 10
261.4246822705
 20
-109.3569101522
 10
260.1297635566
 20
-106.9977931328
 10
258.9206246862
 20
-104.6016536686
 10
257.8015940625
 20
-102.1770693173
 10
256.7766775249
 20
-99.7327194613
 10
255.8495440084
 20
-97.2773542389
 10
255.0235124105
 20
-94.8197632203
 10
254.3015397099
 20
-92.3687439434
 10
253.6862103815
 20
-89.9330704213
 10
253.1797271445
 20
-87.5214617328
 10
252.7839030776
 20
-85.1425508114
 10
252.5001551281
 20
-82.8048535405
 10
252.3294990401
 20
-80.5167382698
 10
252.2725457181
 20
-78.2863958581
  0
LWPOLYLINE
  5
C7
330
1F
100
AcDbEntity
  8
0
  6
Continuous
 62
     7
370
    25
100
AcDbPolyline
 90
      100
 70
   128
 43
0.0
 10
256.0909223365
 20
-80.4906977601
 10
256.1472982714
 20
-78.4724294281
 10
256.31619907
 20
-76.5273782193
 10
256.5969446286
 20
-74.6633761684
 10
256.9884044838
 20
-72.8879289538
 10
257.4890023649
 20
-71.2081856748
 10
258.0967225409
 20
-69.6309100646
 10
258.8091179373
 20
-68.1624532556
 10
259.6233199891
 20
-66.8087282049
 10
260.5360501921
 20
-65.5751858856
 10
261.5436333038
 20
-64.4667933372
 10
262.6420121428
 20
-63.4880136654
 10
263.8267639251
 20
-62.6427880703
 10
265.0931180734
 20
-61.9345199772
 10
266.4359754265
 20
-61.3660613317
 10
267.8499287719
 20
-60.939701116
 10
269.3292846183
 20
-60.6571561325
 10
270.8680861221
 20
-60.5195640898
 10
272.4601370725
 20
-60.5274790227
 10
274.0990268424
 20
-60.6808690605
 10
275.7781562011
 20
-60.9791165557
 10
277.4907638873
 20
-61.4210205708
 10
279.2299538343
 20
-62.0048017143
 10
280.988722938
 20
-62.7281093057
 10
282.759989256
 20
-63.5880308406
 10
284.5366205239
 20
-64.5811037184
 10
286.3114628748
 20
-65.7033291851
 10
288.0773696448
 20
-66.9501884349
 10
289.8272301508
 20
-68.3166608057
 10
291.5539983219
 20
-69.7972439955
 10
293.2507210724
 20
-71.3859762183
 10
294.9105662984
 20
-73.0764602103
 10
296.5268503891
 20
-74.861888989
 10
298.0930651389
 20
-76.7350732629
 10
299.6029039539
 20
-78.6884703801
 10
301.0502872459
 20
-80.7142146998
 10
302.4293869134
 20
-82.8041492646
 10
303.7346498086
 20
-84.9498586457
 10
304.9608200987
 20
-87.1427028286
 10
306.1029604286
 20
-89.3738520039
 10
307.1564718023
 20
-91.6343221212
 10
308.1171121014
 20
-93.9150110652
 10
308.9810131663
 20
-96.2067353065
 10
309.7446963725
 20
-98.5002668804
 10
310.4050866372
 20
-100.7863705448
 10
310.9595248019
 20
-103.055840967
 10
311.4057783398
 20
-105.2995397908
 10
311.7420503454
 20
-107.5084324327
 10
311.96698677
 20
-109.6736244618
 10
312.079681874
 20
-111.7863974139
 10
312.079681874
 20
-113.8382438981
 10
311.96698677
 20
-115.8209018527
 10
311.7420503454
 20
-117.7263878139
 10
311.4057783398
 20
-119.5470290624
 10
310.9595248019
 20
-121.2754945183
 10
310.4050866372
 20
-122.9048242614
 10
309.7446963725
 20
-124.4284575558
 10
308.9810131663
 20
-125.8402592679
 10
308.1171121014
 20
-127.1345445707
 10
307.1564718023
 20
-128.306101834
 10
306.1029604286
 20
-129.3502136101
 10
304.9608200987
 20
-130.2626756295
 10
303.7346498086
 20
-131.0398137297
 10
302.4293869134
 20
-131.6784986498
 10
301.0502872459
 20
-132.1761586311
 10
299.6029039539
 20
-132.5307897725
 10
298.0930651389
 20
-132.7409640995
 10
296.5268503891
 20
-132.8058353142
 10
294.9105662984
 20
-132.7251422033
 10
293.2507210724
 20
-132.4992096894
 10
291.5539983219
 20
-132.128947523
 10
289.8272301508
 20
-131.6158466191
 10
288.0773696448
 20
-130.961973054
 10
286.3114628748
 20
-130.1699597457
 10
284.5366205239
 20
-129.2429958523
 10
282.759989256
 20
-128.1848139303
 10
280.988722938
 20
-126.9996749048
 10
279.2299538343
 20
-125.6923509123
 10
277.4907638873
 20
-124.2681060851
 10
275.7781562011
 20
-122.7326753545
 10
274.0990268424
 20
-121.0922413581
 10
272.4601370725
 20
-119.3534095446
 10
270.8680861221
 20
-117.5231815761
 10
269.3292846183
 20
-115.6089271346
 10
267.8499287719
 20
-113.618354247
 10
266.4359754265
 20
-111.559478248
 10
265.0931180734
 20
-109.4405895044
 10
263.8267639251
 20
-107.2702200333
 10
262.6420121428
 20
-105.0571091467
 10
261.5436333038
 20
-102.8101682609
 10
260.5360501921
 20
-100.5384450139
 10
259.6233199891
 20
-98.2510868333
 10
258.8091179373
 20
-95.9573041033
 10
258.0967225409
 20
-93.6663330774
 10
257.4890023649
 20
-91.3873986872
 10
256.9884044838
 20
-89.1296773972
 10
256.5969446286
 20
-86.9022602543
 10
256.31619907
 20
-84.714116281
 10
256.1472982714
 20
-82.574056361
 10
256.0909223365
 20
-80.4906977601
  0
LWPOLYLINE
  5
C8
330
1F
100
AcDbEntity
  8
0
  6
Continuous
 62
     7
370
    25
100
AcDbPolyline
 90
       66
 70
   128
 43
0.0
 10
350.0899820606
 20
17.6522143706
 10
350.2920098116
 20
17.7674232775
 10
351.9741715903
 20
18.6222686494
 10
353.7324724085
 20
19.3348619343
 10
355.5626094094
 20
19.9034592971
 10
357.4601039412
 20
20.3266692846
 10
359.4203125167
 20
20.6034562312
 10
361.438438177
 20
20.7331427928
 10
363.5095422306
 20
20.7154116046
 10
365.6285563386
 20
20.5503060579
 10
367.7902949186
 20
20.2382301935
 10
369.9894678339
 20
19.7799477134
 10
372.2206933399
 20
19.1765801117
 10
374.478511254
 20
18.4296039299
 10
376.7573963172
 20
17.540847144
 10
379.0517717161
 20
16.5124846908
 10
381.3560227295
 20
15.3470331454
 10
383.6645104691
 20
14.0473445631
 10
385.9715856785
 20
12.6165994997
 10
388.2716025582
 20
11.0582992281
 10
390.5589325813
 20
9.3762571701
 10
392.827978268
 20
7.5745895646
 10
395.0731868833
 20
5.6577053941
 10
397.2890640255
 20
3.6302955954
 10
399.470187072
 20
1.49732158
 10
401.611218449
 20
-0.7359969073
 10
403.7069186941
 20
-3.0641945619
 10
405.7521592775
 20
-5.481573894
 10
407.7419351529
 20
-7.9822191713
 10
409.6713770053
 20
-10.5600108957
 10
411.5357631671
 20
-13.2086407789
 10
413.3305311729
 20
-15.9216271799
 10
415.0512889247
 20
-18.6923309661
 10
416.69382544
 20
-21.5139717613
 10
418.2541211566
 20
-24.3796445374
 10
419.7283577694
 20
-27.2823365132
 10
421.1129275745
 20
-30.2149443147
 10
422.4044422975
 20
-33.1702913595
 10
423.5997413854
 20
-36.1411454179
 10
424.6958997411
 20
-39.1202363124
 10
425.6902348814
 20
-42.1002737081
 10
426.5803135016
 20
-45.0739649544
 10
427.3639574301
 20
-48.0340329304
 10
428.039248959
 20
-50.9732338537
 10
428.6045355367
 20
-53.8843750072
 10
429.0584338122
 20
-56.7603323406
 10
429.3998330204
 20
-59.5940679044
 10
429.6278977003
 20
-62.3786470729
 10
429.7420697393
 20
-65.1072555141
 10
429.7420697393
 20
-67.773215866
 10
429.6278977003
 20
-70.3700040769
 10
429.3998330204
 20
-72.8912653709
 10
429.0584338122
 20
-75.3308297991
 10
428.6045355367
 20
-77.6827273385
 10
428.039248959
 20
-79.9412025017
 10
427.3639574301
 20
-82.1007284216
 10
426.5803135016
 20
-84.1560203764
 10
425.6902348814
 20
-86.1020487223
 10
424.6958997411
 20
-87.9340512017
 10
423.5997413854
 20
-89.6475445976
 10
422.4044422975
 20
-91.2383357046
 10
421.1129275745
 20
-92.7025315903
 10
419.7283577694
 20
-94.0365491219
 10
418.2541211566
 20
-95.237123735
 10
416.69382544
 20
-96.3013174223
 10
416.0846184146
 20
-96.6662354637
  0
LWPOLYLINE
  5
C9
330
1F
100
AcDbEntity
  8
0
  6
Continuous
 62
     7
370
    25
100
AcDbPolyline
 90
       98
 70
   128
 43
0.0
 10
324.4261364117
 20
-21.4112628505
 10
324.3974373991
 20
-19.5050118069
 10
324.454540889
 20
-16.8728322292
 10
324.6257116168
 20
-14.3130243221
 10
324.9105306992
 20
-11.8318523645
 10
325.3083011361
 20
-9.4353881999
 10
325.8180495165
 20
-7.1294963777
 10
326.4385284008
 20
-4.9198198016
 10
327.1682193732
 20
-2.8117659204
 10
328.0053367575
 20
-0.8104934953
 10
328.9478319874
 20
1.0791000247
 10
329.9933986189
 20
2.8523904877
 10
331.1394779754
 20
4.5050383548
 10
332.3832654085
 20
6.0329993197
 10
333.7217171622
 20
7.4325342059
 10
335.1515578205
 20
8.700218117
 10
336.6692883239
 20
9.8329488179
 10
338.2711945314
 20
10.827954327
 10
339.9533563101
 20
11.6827996989
 10
341.7116571283
 20
12.3953929839
 10
343.5417941293
 20
12.9639903466
 10
345.439288661
 20
13.3872003341
 10
347.3994972365
 20
13.6639872807
 10
349.4176228968
 20
13.7936738423
 10
351.4887269504
 20
13.7759426541
 10
353.6077410584
 20
13.6108371074
 10
355.7694796384
 20
13.298761243
 10
357.9686525537
 20
12.8404787629
 10
360.1998780597
 20
12.2371111612
 10
362.4576959738
 20
11.4901349795
 10
364.7365810371
 20
10.6013781935
 10
367.0309564359
 20
9.5730157403
 10
369.3352074494
 20
8.4075641949
 10
371.6436951889
 20
7.1078756126
 10
373.9507703984
 20
5.6771305492
 10
376.250787278
 20
4.1188302776
 10
378.5381173011
 20
2.4367882196
 10
380.8071629878
 20
0.6351206141
 10
383.0523716032
 20
-1.2817635563
 10
385.2682487454
 20
-3.3091733551
 10
387.4493717918
 20
-5.4421473705
 10
389.5904031688
 20
-7.6754658578
 10
391.6861034139
 20
-10.0036635124
 10
393.7313439974
 20
-12.4210428445
 10
395.7211198728
 20
-14.9216881217
 10
397.6505617251
 20
-17.4994798462
 10
399.5149478869
 20
-20.1481097294
 10
401.3097158927
 20
-22.8610961303
 10
403.0304736445
 20
-25.6317999166
 10
404.6730101598
 20
-28.4534407118
 10
406.2333058764
 20
-31.3191134879
 10
407.7075424892
 20
-34.2218054637
 10
409.0921122943
 20
-37.1544132652
 10
410.3836270173
 20
-40.10976031
 10
411.5789261052
 20
-43.0806143684
 10
412.6750844609
 20
-46.0597052628
 10
413.6694196012
 20
-49.0397426586
 10
414.5594982214
 20
-52.0134339049
 10
415.3431421499
 20
-54.9735018809
 10
416.0184336788
 20
-57.9127028042
 10
416.5837202565
 20
-60.8238439577
 10
417.0376185321
 20
-63.6998012911
 10
417.3790177403
 20
-66.5335368549
 10
417.6070824201
 20
-69.3181160234
 10
417.7212544591
 20
-72.0467244646
 10
417.7212544591
 20
-74.7126848165
 10
417.6070824201
 20
-77.3094730274
 10
417.3790177403
 20
-79.8307343214
 10
417.0376185321
 20
-82.2702987496
 10
416.5837202565
 20
-84.622196289
 10
416.0184336788
 20
-86.8806714522
 10
415.3431421499
 20
-89.0401973721
 10
414.5594982214
 20
-91.0954893269
 10
413.6694196012
 20
-93.0415176728
 10
412.6750844609
 20
-94.8735201522
 10
411.5789261052
 20
-96.5870135481
 10
410.3836270173
 20
-98.1778046551
 10
409.0921122943
 20
-99.6420005408
 10
407.7075424892
 20
-100.9760180723
 10
406.2333058764
 20
-102.1765926855
 10
404.6730101598
 20
-103.2407863728
 10
403.0304736445
 20
-104.1659948741
 10
401.3097158927
 20
-104.9499540492
 10
399.5149478869
 20
-105.5907454185
 10
397.6505617251
 20
-106.0868008582
 10
395.7211198728
 20
-106.4369064375
 10
393.7313439974
 20
-106.6402053895
 10
391.6861034139
 20
-106.6962002074
 10
389.5904031688
 20
-106.6047538625
 10
387.4493717918
 20
-106.3660901396
 10
385.2682487454
 20
-105.9807930885
 10
383.0523716032
 20
-105.4498055958
 10
380.8071629878
 20
-104.7744270769
 10
378.5381173011
 20
-103.9563102962
 10
376.250787278
 20
-102.9974573225
 10
373.9507703984
 20
-101.9002146297
 10
371.6436951889
 20
-100.6672673546
 10
369.4224793803
 20
-99.3556604647
  0
LWPOLYLINE
  5
CA
330
1F
100
AcDbEntity
  8
0
  6
Continuous
 62
     7
370
    25
100
AcDbPolyline
 90
       73
 70
   128
 43
0.0
 10
335.9229859412
 20
-8.9168126387
 10
336.4724957898
 20
-7.8108821176
 10
337.406788108
 20
-6.1965679261
 10
338.4415341911
 20
-4.7023752904
 10
339.5736459499
 20
-3.3327634685
 10
340.7997447181
 20
-2.0918199204
 10
342.116171335
 20
-0.9832481093
 10
343.5189970663
 20
-0.0103564494
 10
345.0040353285
 20
0.8239515684
 10
346.5668541839
 20
1.517186041
 10
348.2027895667
 20
2.0672780842
 10
349.9069592027
 20
2.4725860073
 10
351.6742771801
 20
2.731900212
 10
353.4994691272
 20
2.8444468029
 10
355.377087954
 20
2.8098898967
 10
357.301530108
 20
2.6283326247
 10
359.2670522973
 20
2.3003168253
 10
361.2677886312
 20
1.8268214265
 10
363.2977681263
 20
1.2092595247
 10
365.3509325257
 20
0.4494741673
 10
367.4211543799
 20
-0.4502671475
 10
369.5022553334
 20
-1.4872792381
 10
371.5880245629
 20
-2.6584672528
 10
373.6722373132
 20
-3.9603359062
 10
375.7486734743
 20
-5.3889999106
 10
377.8111361446
 20
-6.9401955711
 10
379.8534701249
 20
-8.6092935101
 10
381.8695802878
 20
-10.3913124835
 10
383.8534497683
 20
-12.2809342461
 10
385.7991579201
 20
-14.272519424
 10
387.7008979854
 20
-16.3601243442
 10
389.5529944242
 20
-18.5375187732
 10
391.349919853
 20
-20.7982045101
 10
393.08631154
 20
-23.1354347803
 10
394.7569874099
 20
-25.5422343699
 10
396.3569615093
 20
-28.0114204431
 10
397.8814588866
 20
-30.5356239781
 10
399.3259298425
 20
-33.1073117595
 10
400.686063508
 20
-35.7188088602
 10
401.9578007096
 20
-38.3623215464
 10
403.1373460836
 20
-41.0299605372
 10
404.221179403
 20
-43.7137645496
 10
405.2060660833
 20
-46.4057240573
 10
406.0890668355
 20
-49.0978051954
 10
406.8675464383
 20
-51.7819737355
 10
407.5391816025
 20
-54.4502190637
 10
408.101967905
 20
-57.0945780873
 10
408.5542257701
 20
-59.7071589997
 10
408.8946054827
 20
-62.2801648325
 10
409.1220912159
 20
-64.8059167251
 10
409.2360040628
 20
-67.2768768412
 10
409.2360040628
 20
-69.6856708645
 10
409.1220912159
 20
-72.0251100069
 10
408.8946054827
 20
-74.2882124627
 10
408.5542257701
 20
-76.4682242445
 10
408.101967905
 20
-78.5586393404
 10
407.5391816025
 20
-80.5532191301
 10
406.8675464383
 20
-82.4460110037
 10
406.0890668355
 20
-84.2313661262
 10
405.2060660833
 20
-85.9039562962
 10
404.221179403
 20
-87.4587898473
 10
403.1373460836
 20
-88.8912265451
 10
401.9578007096
 20
-90.1969914355
 10
400.686063508
 20
-91.3721876028
 10
399.3259298425
 20
-92.4133077997
 10
397.8814588866
 20
-93.3172449144
 10
396.3569615093
 20
-94.0813012434
 10
394.7569874099
 20
-94.7031965421
 10
393.08631154
 20
-95.1810748306
 10
391.349919853
 20
-95.5135099322
 10
389.5529944242
 20
-95.69950973
 10
387.7008979854
 20
-95.7385191275
 10
385.9917634395
 20
-95.64787663
  0
ENDSEC
  0
SECTION
  2
OBJECTS
  0
DICTIONARY
  5
C
330
0
100
AcDbDictionary
281
     1
  3
ACAD_GROUP
350
D
  3
ACAD_LAYOUT
350
1A
  3
ACAD_MLINESTYLE
350
17
  3
ACAD_PLOTSETTINGS
350
19
  3
ACAD_PLOTSTYLENAME
350
E
  3
ACAD_SCALELIST
350
47
  0
DICTIONARY
  5
D
102
{ACAD_REACTORS
330
C
102
}
330
C
100
AcDbDictionary
281
     1
  0
DICTIONARY
  5
1A
102
{ACAD_REACTORS
330
C
102
}
330
C
100
AcDbDictionary
281
     1
  3
Layout1
350
1E
  3
Layout2
350
26
  3
Model
350
22
  0
DICTIONARY
  5
17
102
{ACAD_REACTORS
330
C
102
}
330
C
100
AcDbDictionary
281
     1
  3
Standard
350
18
  0
DICTIONARY
  5
19
102
{ACAD_REACTORS
330
C
102
}
330
C
100
AcDbDictionary
281
     1
  0
ACDBDICTIONARYWDFLT
  5
E
102
{ACAD_REACTORS
330
C
102
}
330
C
100
AcDbDictionary
281
     1
  3
Normal
350
F
100
AcDbDictionaryWithDefault
340
F
  0
DICTIONARY
  5
47
102
{ACAD_REACTORS
330
C
102
}
330
C
100
AcDbDictionary
281
     1
  3
A0
350
48
  3
A1
350
49
  3
A2
350
4A
  3
A3
350
4B
  3
A4
350
4C
  3
A5
350
4D
  3
A6
350
4E
  3
A7
350
4F
  3
A8
350
50
  3
A9
350
51
  3
B0
350
52
  3
B1
350
53
  3
B2
350
54
  3
B3
350
55
  3
B4
350
56
  3
B5
350
57
  3
B6
350
58
  3
B7
350
59
  3
B8
350
5A
  3
B9
350
5B
  3
C0
350
5C
  3
C1
350
5D
  3
C2
350
5E
  3
C3
350
5F
  3
C4
350
60
  3
C5
350
61
  3
C6
350
62
  3
C7
350
63
  3
C8
350
64
  3
C9
350
65
  3
D0
350
66
  3
D1
350
67
  3
D2
350
68
  0
LAYOUT
  5
1E
102
{ACAD_REACTORS
330
1A
102
}
330
1A
100
AcDbPlotSettings
  1

  2
none_device
  4

  6

 40
0.0
 41
0.0
 42
0.0
 43
0.0
 44
0.0
 45
0.0
 46
0.0
 47
0.0
 48
0.0
 49
0.0
140
0.0
141
0.0
142
1.0
143
1.0
 70
   688
 72
     1
 73
     0
 74
     5
  7

 75
    16
147
1.0
148
0.0
149
0.0
100
AcDbLayout
  1
Layout1
 70
     1
 71
     1
 10
0.0
 20
0.0
 11
420.0
 21
297.0
 12
0.0
 22
0.0
 32
0.0
 14
1.0000000000E+20
 24
1.0000000000E+20
 34
1.0000000000E+20
 15
-1.0000000000E+20
 25
-1.0000000000E+20
 35
-1.0000000000E+20
146
0.0
 13
0.0
 23
0.0
 33
0.0
 16
1.0
 26
0.0
 36
0.0
 17
0.0
 27
1.0
 37
0.0
 76
     0
330
1B
  0
LAYOUT
  5
26
102
{ACAD_REACTORS
330
1A
102
}
330
1A
100
AcDbPlotSettings
  1

  2
none_device
  4

  6

 40
0.0
 41
0.0
 42
0.0
 43
0.0
 44
0.0
 45
0.0
 46
0.0
 47
0.0
 48
0.0
 49
0.0
140
0.0
141
0.0
142
1.0
143
1.0
 70
   688
 72
     1
 73
     0
 74
     5
  7

 75
    16
147
1.0
148
0.0
149
0.0
100
AcDbLayout
  1
Layout2
 70
     1
 71
     2
 10
0.0
 20
0.0
 11
0.0
 21
0.0
 12
0.0
 22
0.0
 32
0.0
 14
0.0
 24
0.0
 34
0.0
 15
0.0
 25
0.0
 35
0.0
146
0.0
 13
0.0
 23
0.0
 33
0.0
 16
1.0
 26
0.0
 36
0.0
 17
0.0
 27
1.0
 37
0.0
 76
     0
330
23
  0
LAYOUT
  5
22
102
{ACAD_REACTORS
330
1A
102
}
330
1A
100
AcDbPlotSettings
  1

  2
none_device
  4
Letter_(8.50_x_11.00_Inches)
  6

 40
6.35
 41
6.35
 42
6.35000508
 43
6.35000508
 44
215.9
 45
279.4
 46
0.0
 47
0.0
 48
0.0
 49
0.0
140
0.0
141
0.0
142
1.0
143
1.0
 70
  1712
 72
     1
 73
     0
 74
     0
  7

 75
     0
147
1.0
148
0.0
149
0.0
100
AcDbLayout
  1
Model
 70
     1
 71
     0
 10
0.0
 20
0.0
 11
279.4
 21
215.9
 12
0.0
 22
0.0
 32
0.0
 14
0.0
 24
0.0
 34
0.0
 15
279.4
 25
215.9
 35
0.0
146
0.0
 13
0.0
 23
0.0
 33
0.0
 16
1.0
 26
0.0
 36
0.0
 17
0.0
 27
1.0
 37
0.0
 76
     0
330
1F
331
29
  0
MLINESTYLE
  5
18
102
{ACAD_REACTORS
330
17
102
}
330
17
100
AcDbMlineStyle
  2
Standard
 70
     0
  3

 62
   256
 51
90.0
 52
90.0
 71
     2
 49
0.5
 62
   256
  6
BYLAYER
 49
-0.5
 62
   256
  6
BYLAYER
  0
ACDBPLACEHOLDER
  5
F
102
{ACAD_REACTORS
330
E
102
}
330
E
  0
SCALE
  5
48
102
{ACAD_REACTORS
330
47
102
}
330
47
100
AcDbScale
 70
     0
300
1:1
140
1.0
141
1.0
290
     1
  0
SCALE
  5
49
102
{ACAD_REACTORS
330
47
102
}
330
47
100
AcDbScale
 70
     0
300
1:2
140
1.0
141
2.0
290
     0
  0
SCALE
  5
4A
102
{ACAD_REACTORS
330
47
102
}
330
47
100
AcDbScale
 70
     0
300
1:4
140
1.0
141
4.0
290
     0
  0
SCALE
  5
4B
102
{ACAD_REACTORS
330
47
102
}
330
47
100
AcDbScale
 70
     0
300
1:5
140
1.0
141
5.0
290
     0
  0
SCALE
  5
4C
102
{ACAD_REACTORS
330
47
102
}
330
47
100
AcDbScale
 70
     0
300
1:8
140
1.0
141
8.0
290
     0
  0
SCALE
  5
4D
102
{ACAD_REACTORS
330
47
102
}
330
47
100
AcDbScale
 70
     0
300
1:10
140
1.0
141
10.0
290
     0
  0
SCALE
  5
4E
102
{ACAD_REACTORS
330
47
102
}
330
47
100
AcDbScale
 70
     0
300
1:16
140
1.0
141
16.0
290
     0
  0
SCALE
  5
4F
102
{ACAD_REACTORS
330
47
102
}
330
47
100
AcDbScale
 70
     0
300
1:20
140
1.0
141
20.0
290
     0
  0
SCALE
  5
50
102
{ACAD_REACTORS
330
47
102
}
330
47
100
AcDbScale
 70
     0
300
1:30
140
1.0
141
30.0
290
     0
  0
SCALE
  5
51
102
{ACAD_REACTORS
330
47
102
}
330
47
100
AcDbScale
 70
     0
300
1:40
140
1.0
141
40.0
290
     0
  0
SCALE
  5
52
102
{ACAD_REACTORS
330
47
102
}
330
47
100
AcDbScale
 70
     0
300
1:50
140
1.0
141
50.0
290
     0
  0
SCALE
  5
53
102
{ACAD_REACTORS
330
47
102
}
330
47
100
AcDbScale
 70
     0
300
1:100
140
1.0
141
100.0
290
     0
  0
SCALE
  5
54
102
{ACAD_REACTORS
330
47
102
}
330
47
100
AcDbScale
 70
     0
300
2:1
140
2.0
141
1.0
290
     0
  0
SCALE
  5
55
102
{ACAD_REACTORS
330
47
102
}
330
47
100
AcDbScale
 70
     0
300
4:1
140
4.0
141
1.0
290
     0
  0
SCALE
  5
56
102
{ACAD_REACTORS
330
47
102
}
330
47
100
AcDbScale
 70
     0
300
8:1
140
8.0
141
1.0
290
     0
  0
SCALE
  5
57
102
{ACAD_REACTORS
330
47
102
}
330
47
100
AcDbScale
 70
     0
300
10:1
140
10.0
141
1.0
290
     0
  0
SCALE
  5
58
102
{ACAD_REACTORS
330
47
102
}
330
47
100
AcDbScale
 70
     0
300
100:1
140
100.0
141
1.0
290
     0
  0
SCALE
  5
59
102
{ACAD_REACTORS
330
47
102
}
330
47
100
AcDbScale
 70
     0
300
1/128" = 1'-0"
140
0.0078125
141
12.0
290
     0
  0
SCALE
  5
5A
102
{ACAD_REACTORS
330
47
102
}
330
47
100
AcDbScale
 70
     0
300
1/64" = 1'-0"
140
0.015625
141
12.0
290
     0
  0
SCALE
  5
5B
102
{ACAD_REACTORS
330
47
102
}
330
47
100
AcDbScale
 70
     0
300
1/32" = 1'-0"
140
0.03125
141
12.0
290
     0
  0
SCALE
  5
5C
102
{ACAD_REACTORS
330
47
102
}
330
47
100
AcDbScale
 70
     0
300
1/16" = 1'-0"
140
0.0625
141
12.0
290
     0
  0
SCALE
  5
5D
102
{ACAD_REACTORS
330
47
102
}
330
47
100
AcDbScale
 70
     0
300
3/32" = 1'-0"
140
0.09375
141
12.0
290
     0
  0
SCALE
  5
5E
102
{ACAD_REACTORS
330
47
102
}
330
47
100
AcDbScale
 70
     0
300
1/8" = 1'-0"
140
0.125
141
12.0
290
     0
  0
SCALE
  5
5F
102
{ACAD_REACTORS
330
47
102
}
330
47
100
AcDbScale
 70
     0
300
3/16" = 1'-0"
140
0.1875
141
12.0
290
     0
  0
SCALE
  5
60
102
{ACAD_REACTORS
330
47
102
}
330
47
100
AcDbScale
 70
     0
300
1/4" = 1'-0"
140
0.25
141
12.0
290
     0
  0
SCALE
  5
61
102
{ACAD_REACTORS
330
47
102
}
330
47
100
AcDbScale
 70
     0
300
3/8" = 1'-0"
140
0.375
141
12.0
290
     0
  0
SCALE
  5
62
102
{ACAD_REACTORS
330
47
102
}
330
47
100
AcDbScale
 70
     0
300
1/2" = 1'-0"
140
0.5
141
12.0
290
     0
  0
SCALE
  5
63
102
{ACAD_REACTORS
330
47
102
}
330
47
100
AcDbScale
 70
     0
300
3/4" = 1'-0"
140
0.75
141
12.0
290
     0
  0
SCALE
  5
64
102
{ACAD_REACTORS
330
47
102
}
330
47
100
AcDbScale
 70
     0
300
1" = 1'-0"
140
1.0
141
12.0
290
     0
  0
SCALE
  5
65
102
{ACAD_REACTORS
330
47
102
}
330
47
100
AcDbScale
 70
     0
300
1-1/2" = 1'-0"
140
1.5
141
12.0
290
     0
  0
SCALE
  5
66
102
{ACAD_REACTORS
330
47
102
}
330
47
100
AcDbScale
 70
     0
300
3" = 1'-0"
140
3.0
141
12.0
290
     0
  0
SCALE
  5
67
102
{ACAD_REACTORS
330
47
102
}
330
47
100
AcDbScale
 70
     0
300
6" = 1'-0"
140
6.0
141
12.0
290
     0
  0
SCALE
  5
68
102
{ACAD_REACTORS
330
47
102
}
330
47
100
AcDbScale
 70
     0
300
1'-0" = 1'-0"
140
12.0
141
12.0
290
     0
  0
ENDSEC
  0
EOF
